ISO-10303-21;
HEADER;
FILE_DESCRIPTION (( 'STEP AP203' ),
    '1' );
FILE_NAME ('MHWP-25.4-1550.STEP',
    '2020-12-22T09:25:54',
    ( '' ),
    ( '' ),
    'SwSTEP 2.0',
    'SolidWorks 2020',
    '' );
FILE_SCHEMA (( 'CONFIG_CONTROL_DESIGN' ));
ENDSEC;

DATA;
#1 = CIRCLE ( 'NONE', #150, 12.69999999999999929 ) ;
#2 =( LENGTH_UNIT ( ) NAMED_UNIT ( * ) SI_UNIT ( .MILLI., .METRE. ) );
#3 = PERSON_AND_ORGANIZATION_ROLE ( 'design_owner' ) ;
#4 = CC_DESIGN_PERSON_AND_ORGANIZATION_ASSIGNMENT ( #24, #85, ( #63 ) ) ;
#5 = CIRCLE ( 'NONE', #98, 12.69999999999999929 ) ;
#6 = ORGANIZATION ( 'UNSPECIFIED', 'UNSPECIFIED', '' ) ;
#7 = COORDINATED_UNIVERSAL_TIME_OFFSET ( 8, 0, .AHEAD. ) ;
#8 = APPROVAL ( #39, 'UNSPECIFIED' ) ;
#9 = DIRECTION ( 'NONE',  ( 0.000000000000000000, 0.000000000000000000, 1.000000000000000000 ) ) ;
#10 = ORIENTED_EDGE ( 'NONE', *, *, #29, .F. ) ;
#11 = VERTEX_POINT ( 'NONE', #105 ) ;
#12 = AXIS2_PLACEMENT_3D ( 'NONE', #61, #107, #9 ) ;
#13 = CARTESIAN_POINT ( 'NONE',  ( 1.999999999999998224, 0.000000000000000000, 0.000000000000000000 ) ) ;
#14 = ADVANCED_FACE ( 'NONE', ( #134 ), #93, .F. ) ;
#15 = APPLICATION_CONTEXT ( 'configuration controlled 3d designs of mechanical parts and assemblies' ) ;
#16 = PERSON_AND_ORGANIZATION_ROLE ( 'creator' ) ;
#17 = EDGE_CURVE ( 'NONE', #18, #78, #5, .T. ) ;
#18 = VERTEX_POINT ( 'NONE', #81 ) ;
#19 = ORIENTED_EDGE ( 'NONE', *, *, #143, .F. ) ;
#20 = ORIENTED_EDGE ( 'NONE', *, *, #87, .T. ) ;
#21 = CC_DESIGN_APPROVAL ( #68, ( #132 ) ) ;
#22 = ORIENTED_EDGE ( 'NONE', *, *, #110, .F. ) ;
#23 = CARTESIAN_POINT ( 'NONE',  ( -1.187907395172932594E-15, 0.000000000000000000, 0.000000000000000000 ) ) ;
#24 = PERSON_AND_ORGANIZATION ( #99, #6 ) ;
#25 = DIRECTION ( 'NONE',  ( -1.000000000000000000, -0.000000000000000000, -0.000000000000000000 ) ) ;
#26 = DATE_AND_TIME ( #165, #133 ) ;
#27 = PERSON_AND_ORGANIZATION ( #99, #6 ) ;
#28 = APPROVAL_ROLE ( '' ) ;
#29 = EDGE_CURVE ( 'NONE', #11, #131, #1, .T. ) ;
#30 = DIRECTION ( 'NONE',  ( 0.000000000000000000, 0.000000000000000000, -1.000000000000000000 ) ) ;
#31 = ORIENTED_EDGE ( 'NONE', *, *, #141, .F. ) ;
#32 = VECTOR ( 'NONE', #161, 1000.000000000000000 ) ;
#33 = CARTESIAN_POINT ( 'NONE',  ( 1.999999999999998224, 0.000000000000000000, 0.000000000000000000 ) ) ;
#34 = CC_DESIGN_DATE_AND_TIME_ASSIGNMENT ( #71, #167, ( #74 ) ) ;
#35 = AXIS2_PLACEMENT_3D ( 'NONE', #83, #151, #96 ) ;
#36 = CC_DESIGN_SECURITY_CLASSIFICATION ( #74, ( #132 ) ) ;
#37 = MECHANICAL_CONTEXT ( 'NONE', #75, 'mechanical' ) ;
#38 = APPLICATION_PROTOCOL_DEFINITION ( 'international standard', 'config_control_design', 1994, #75 ) ;
#39 = APPROVAL_STATUS ( 'not_yet_approved' ) ;
#40 = APPROVAL_STATUS ( 'not_yet_approved' ) ;
#41 = DATE_AND_TIME ( #128, #153 ) ;
#42 = ADVANCED_BREP_SHAPE_REPRESENTATION ( 'MHWP-25.4-1550', ( #122, #35 ), #138 ) ;
#43 = DIRECTION ( 'NONE',  ( 0.000000000000000000, 0.000000000000000000, 1.000000000000000000 ) ) ;
#44 = CARTESIAN_POINT ( 'NONE',  ( -1.187907395172932594E-15, 0.000000000000000000, 0.000000000000000000 ) ) ;
#45 = EDGE_LOOP ( 'NONE', ( #57, #121, #54, #19 ) ) ;
#46 = DIRECTION ( 'NONE',  ( -0.000000000000000000, 0.000000000000000000, 1.000000000000000000 ) ) ;
#47 = COORDINATED_UNIVERSAL_TIME_OFFSET ( 8, 0, .AHEAD. ) ;
#48 = DIRECTION ( 'NONE',  ( 0.000000000000000000, 0.000000000000000000, 1.000000000000000000 ) ) ;
#49 = ADVANCED_FACE ( 'NONE', ( #135 ), #147, .T. ) ;
#50 = LOCAL_TIME ( 17, 25, 54.00000000000000000, #47 ) ;
#51 =( NAMED_UNIT ( * ) SI_UNIT ( $, .STERADIAN. ) SOLID_ANGLE_UNIT ( ) );
#52 = APPROVAL_DATE_TIME ( #53, #68 ) ;
#53 = DATE_AND_TIME ( #113, #103 ) ;
#54 = ORIENTED_EDGE ( 'NONE', *, *, #87, .F. ) ;
#55 = CALENDAR_DATE ( 2020, 22, 12 ) ;
#56 = COORDINATED_UNIVERSAL_TIME_OFFSET ( 8, 0, .AHEAD. ) ;
#57 = ORIENTED_EDGE ( 'NONE', *, *, #17, .T. ) ;
#58 = FACE_OUTER_BOUND ( 'NONE', #76, .T. ) ;
#59 = PRODUCT ( 'MHWP-25.4-1550', 'MHWP-25.4-1550', '', ( #37 ) ) ;
#60 = AXIS2_PLACEMENT_3D ( 'NONE', #159, #149, #79 ) ;
#61 = CARTESIAN_POINT ( 'NONE',  ( 0.000000000000000000, 0.000000000000000000, 0.000000000000000000 ) ) ;
#62 = DIRECTION ( 'NONE',  ( -1.000000000000000000, -0.000000000000000000, -0.000000000000000000 ) ) ;
#63 = PRODUCT_DEFINITION ( 'UNKNOWN', '', #132, #154 ) ;
#64 = PERSON_AND_ORGANIZATION ( #99, #6 ) ;
#65 = CC_DESIGN_PERSON_AND_ORGANIZATION_ASSIGNMENT ( #155, #114, ( #132 ) ) ;
#66 = AXIS2_PLACEMENT_3D ( 'NONE', #13, #137, #48 ) ;
#67 = CARTESIAN_POINT ( 'NONE',  ( 0.000000000000000000, 0.000000000000000000, 12.69999999999999929 ) ) ;
#68 = APPROVAL ( #40, 'UNSPECIFIED' ) ;
#69 = COORDINATED_UNIVERSAL_TIME_OFFSET ( 8, 0, .AHEAD. ) ;
#70 = CC_DESIGN_APPROVAL ( #8, ( #74 ) ) ;
#71 = DATE_AND_TIME ( #55, #127 ) ;
#72 = ORIENTED_EDGE ( 'NONE', *, *, #110, .T. ) ;
#73 = PERSON_AND_ORGANIZATION_ROLE ( 'classification_officer' ) ;
#74 = SECURITY_CLASSIFICATION ( '', '', #116 ) ;
#75 = APPLICATION_CONTEXT ( 'configuration controlled 3d designs of mechanical parts and assemblies' ) ;
#76 = EDGE_LOOP ( 'NONE', ( #117, #22 ) ) ;
#77 = CC_DESIGN_DATE_AND_TIME_ASSIGNMENT ( #41, #130, ( #63 ) ) ;
#78 = VERTEX_POINT ( 'NONE', #106 ) ;
#79 = DIRECTION ( 'NONE',  ( 0.000000000000000000, 0.000000000000000000, 1.000000000000000000 ) ) ;
#80 = APPROVAL_PERSON_ORGANIZATION ( #27, #68, #118 ) ;
#81 = CARTESIAN_POINT ( 'NONE',  ( 1.999999999999998224, 0.000000000000000000, 12.69999999999999929 ) ) ;
#82 = CLOSED_SHELL ( 'NONE', ( #84, #49, #92, #14 ) ) ;
#83 = CARTESIAN_POINT ( 'NONE',  ( 0.000000000000000000, 0.000000000000000000, 0.000000000000000000 ) ) ;
#84 = ADVANCED_FACE ( 'NONE', ( #90 ), #172, .T. ) ;
#85 = PERSON_AND_ORGANIZATION_ROLE ( 'creator' ) ;
#86 =( NAMED_UNIT ( * ) PLANE_ANGLE_UNIT ( ) SI_UNIT ( $, .RADIAN. ) );
#87 = EDGE_CURVE ( 'NONE', #131, #11, #88, .T. ) ;
#88 = CIRCLE ( 'NONE', #102, 12.69999999999999929 ) ;
#89 = DIRECTION ( 'NONE',  ( -1.000000000000000000, -0.000000000000000000, -0.000000000000000000 ) ) ;
#90 = FACE_OUTER_BOUND ( 'NONE', #45, .T. ) ;
#91 = VECTOR ( 'NONE', #25, 1000.000000000000000 ) ;
#92 = ADVANCED_FACE ( 'NONE', ( #58 ), #119, .F. ) ;
#93 = PLANE ( 'NONE',  #125 ) ;
#94 = CARTESIAN_POINT ( 'NONE',  ( -5.939536975864662969E-16, 12.69999999999999929, 0.000000000000000000 ) ) ;
#95 = APPROVAL_DATE_TIME ( #162, #129 ) ;
#96 = DIRECTION ( 'NONE',  ( 1.000000000000000000, 0.000000000000000000, 0.000000000000000000 ) ) ;
#97 = LINE ( 'NONE', #67, #32 ) ;
#98 = AXIS2_PLACEMENT_3D ( 'NONE', #33, #89, #148 ) ;
#99 = PERSON ( 'UNSPECIFIED', 'UNSPECIFIED', 'UNSPECIFIED', ('UNSPECIFIED'), ('UNSPECIFIED'), ('UNSPECIFIED') ) ;
#100 = PERSON_AND_ORGANIZATION ( #99, #6 ) ;
#101 = APPROVAL_DATE_TIME ( #26, #8 ) ;
#102 = AXIS2_PLACEMENT_3D ( 'NONE', #23, #104, #136 ) ;
#103 = LOCAL_TIME ( 17, 25, 54.00000000000000000, #69 ) ;
#104 = DIRECTION ( 'NONE',  ( -1.000000000000000000, -0.000000000000000000, -0.000000000000000000 ) ) ;
#105 = CARTESIAN_POINT ( 'NONE',  ( -1.187907395172932594E-15, 1.555301434917138433E-15, -12.69999999999999929 ) ) ;
#106 = CARTESIAN_POINT ( 'NONE',  ( 1.999999999999998224, 1.555301434917138433E-15, -12.69999999999999929 ) ) ;
#107 = DIRECTION ( 'NONE',  ( -1.000000000000000000, -0.000000000000000000, -0.000000000000000000 ) ) ;
#108 = CARTESIAN_POINT ( 'NONE',  ( 0.000000000000000000, 1.555301434917138433E-15, -12.69999999999999929 ) ) ;
#109 = CALENDAR_DATE ( 2020, 22, 12 ) ;
#110 = EDGE_CURVE ( 'NONE', #78, #18, #146, .T. ) ;
#111 = LINE ( 'NONE', #108, #91 ) ;
#112 = APPROVAL_PERSON_ORGANIZATION ( #152, #129, #174 ) ;
#113 = CALENDAR_DATE ( 2020, 22, 12 ) ;
#114 = PERSON_AND_ORGANIZATION_ROLE ( 'design_supplier' ) ;
#115 = CC_DESIGN_PERSON_AND_ORGANIZATION_ASSIGNMENT ( #168, #16, ( #132 ) ) ;
#116 = SECURITY_CLASSIFICATION_LEVEL ( 'unclassified' ) ;
#117 = ORIENTED_EDGE ( 'NONE', *, *, #17, .F. ) ;
#118 = APPROVAL_ROLE ( '' ) ;
#119 = PLANE ( 'NONE',  #170 ) ;
#120 = UNCERTAINTY_MEASURE_WITH_UNIT (LENGTH_MEASURE( 1.000000000000000082E-05 ), #2, 'distance_accuracy_value', 'NONE');
#121 = ORIENTED_EDGE ( 'NONE', *, *, #141, .T. ) ;
#122 = MANIFOLD_SOLID_BREP ( 'Ðý×', #82 ) ;
#123 = APPROVAL_STATUS ( 'not_yet_approved' ) ;
#124 = PRODUCT_RELATED_PRODUCT_CATEGORY ( 'detail', '', ( #59 ) ) ;
#125 = AXIS2_PLACEMENT_3D ( 'NONE', #94, #157, #30 ) ;
#126 = CARTESIAN_POINT ( 'NONE',  ( -1.187907395172932594E-15, 0.000000000000000000, 12.69999999999999929 ) ) ;
#127 = LOCAL_TIME ( 17, 25, 54.00000000000000000, #142 ) ;
#128 = CALENDAR_DATE ( 2020, 22, 12 ) ;
#129 = APPROVAL ( #123, 'UNSPECIFIED' ) ;
#130 = DATE_TIME_ROLE ( 'creation_date' ) ;
#131 = VERTEX_POINT ( 'NONE', #126 ) ;
#132 = PRODUCT_DEFINITION_FORMATION_WITH_SPECIFIED_SOURCE ( 'ANY', '', #59, .NOT_KNOWN. ) ;
#133 = LOCAL_TIME ( 17, 25, 54.00000000000000000, #7 ) ;
#134 = FACE_OUTER_BOUND ( 'NONE', #145, .T. ) ;
#135 = FACE_OUTER_BOUND ( 'NONE', #169, .T. ) ;
#136 = DIRECTION ( 'NONE',  ( 0.000000000000000000, 0.000000000000000000, 1.000000000000000000 ) ) ;
#137 = DIRECTION ( 'NONE',  ( -1.000000000000000000, -0.000000000000000000, -0.000000000000000000 ) ) ;
#138 =( GEOMETRIC_REPRESENTATION_CONTEXT ( 3 ) GLOBAL_UNCERTAINTY_ASSIGNED_CONTEXT ( ( #120 ) ) GLOBAL_UNIT_ASSIGNED_CONTEXT ( ( #2, #86, #51 ) ) REPRESENTATION_CONTEXT ( 'NONE', 'WORKASPACE' ) );
#139 = SHAPE_DEFINITION_REPRESENTATION ( #160, #42 ) ;
#140 = PERSON_AND_ORGANIZATION ( #99, #6 ) ;
#141 = EDGE_CURVE ( 'NONE', #78, #11, #111, .T. ) ;
#142 = COORDINATED_UNIVERSAL_TIME_OFFSET ( 8, 0, .AHEAD. ) ;
#143 = EDGE_CURVE ( 'NONE', #18, #131, #97, .T. ) ;
#144 = ORIENTED_EDGE ( 'NONE', *, *, #143, .T. ) ;
#145 = EDGE_LOOP ( 'NONE', ( #20, #171 ) ) ;
#146 = CIRCLE ( 'NONE', #66, 12.69999999999999929 ) ;
#147 = CYLINDRICAL_SURFACE ( 'NONE', #12, 12.69999999999999929 ) ;
#148 = DIRECTION ( 'NONE',  ( 0.000000000000000000, 0.000000000000000000, 1.000000000000000000 ) ) ;
#149 = DIRECTION ( 'NONE',  ( -1.000000000000000000, -0.000000000000000000, -0.000000000000000000 ) ) ;
#150 = AXIS2_PLACEMENT_3D ( 'NONE', #44, #62, #43 ) ;
#151 = DIRECTION ( 'NONE',  ( 0.000000000000000000, 0.000000000000000000, 1.000000000000000000 ) ) ;
#152 = PERSON_AND_ORGANIZATION ( #99, #6 ) ;
#153 = LOCAL_TIME ( 17, 25, 54.00000000000000000, #56 ) ;
#154 = DESIGN_CONTEXT ( 'detailed design', #15, 'design' ) ;
#155 = PERSON_AND_ORGANIZATION ( #99, #6 ) ;
#156 = CARTESIAN_POINT ( 'NONE',  ( 1.999999999999999112, 12.69999999999999929, 0.000000000000000000 ) ) ;
#157 = DIRECTION ( 'NONE',  ( 1.000000000000000000, 0.000000000000000000, 0.000000000000000000 ) ) ;
#158 = CC_DESIGN_APPROVAL ( #129, ( #63 ) ) ;
#159 = CARTESIAN_POINT ( 'NONE',  ( 0.000000000000000000, 0.000000000000000000, 0.000000000000000000 ) ) ;
#160 = PRODUCT_DEFINITION_SHAPE ( 'NONE', 'NONE',  #63 ) ;
#161 = DIRECTION ( 'NONE',  ( -1.000000000000000000, -0.000000000000000000, -0.000000000000000000 ) ) ;
#162 = DATE_AND_TIME ( #109, #50 ) ;
#163 = CC_DESIGN_PERSON_AND_ORGANIZATION_ASSIGNMENT ( #64, #3, ( #59 ) ) ;
#164 = APPLICATION_PROTOCOL_DEFINITION ( 'international standard', 'config_control_design', 1994, #15 ) ;
#165 = CALENDAR_DATE ( 2020, 22, 12 ) ;
#166 = CC_DESIGN_PERSON_AND_ORGANIZATION_ASSIGNMENT ( #140, #73, ( #74 ) ) ;
#167 = DATE_TIME_ROLE ( 'classification_date' ) ;
#168 = PERSON_AND_ORGANIZATION ( #99, #6 ) ;
#169 = EDGE_LOOP ( 'NONE', ( #31, #72, #144, #10 ) ) ;
#170 = AXIS2_PLACEMENT_3D ( 'NONE', #156, #175, #46 ) ;
#171 = ORIENTED_EDGE ( 'NONE', *, *, #29, .T. ) ;
#172 = CYLINDRICAL_SURFACE ( 'NONE', #60, 12.69999999999999929 ) ;
#173 = APPROVAL_PERSON_ORGANIZATION ( #100, #8, #28 ) ;
#174 = APPROVAL_ROLE ( '' ) ;
#175 = DIRECTION ( 'NONE',  ( -1.000000000000000000, 0.000000000000000000, -0.000000000000000000 ) ) ;
ENDSEC;
END-ISO-10303-21;
